ISO-10303-21;
HEADER;
/* Generated by software containing ST-Developer
 * from STEP Tools, Inc. (www.steptools.com) 
 */

FILE_DESCRIPTION(
/* description */ (''),
/* implementation_level */ '2;1');

FILE_NAME(
/* name */ 'Monzite_MCI050N400D06A v2.step',
/* time_stamp */ '2023-06-08T23:55:54-04:00',
/* author */ (''),
/* organization */ (''),
/* preprocessor_version */ 'ST-DEVELOPER v19.2',
/* originating_system */ 'Autodesk Translation Framework v12.6.0.85',
/* authorisation */ '');

FILE_SCHEMA (('AUTOMOTIVE_DESIGN { 1 0 10303 214 3 1 1 }'));
ENDSEC;

DATA;
#10=MECHANICAL_DESIGN_GEOMETRIC_PRESENTATION_REPRESENTATION('',(#59,#60,
#61,#62,#63,#64,#65,#66,#67),#467);
#11=ITEM_DEFINED_TRANSFORMATION($,$,#289,#307);
#12=ITEM_DEFINED_TRANSFORMATION($,$,#300,#308);
#13=ITEM_DEFINED_TRANSFORMATION($,$,#300,#309);
#14=ITEM_DEFINED_TRANSFORMATION($,$,#300,#310);
#15=ITEM_DEFINED_TRANSFORMATION($,$,#300,#311);
#16=ITEM_DEFINED_TRANSFORMATION($,$,#300,#312);
#17=ITEM_DEFINED_TRANSFORMATION($,$,#300,#313);
#18=(
REPRESENTATION_RELATIONSHIP($,$,#489,#488)
REPRESENTATION_RELATIONSHIP_WITH_TRANSFORMATION(#11)
SHAPE_REPRESENTATION_RELATIONSHIP()
);
#19=(
REPRESENTATION_RELATIONSHIP($,$,#490,#488)
REPRESENTATION_RELATIONSHIP_WITH_TRANSFORMATION(#12)
SHAPE_REPRESENTATION_RELATIONSHIP()
);
#20=(
REPRESENTATION_RELATIONSHIP($,$,#490,#488)
REPRESENTATION_RELATIONSHIP_WITH_TRANSFORMATION(#13)
SHAPE_REPRESENTATION_RELATIONSHIP()
);
#21=(
REPRESENTATION_RELATIONSHIP($,$,#490,#488)
REPRESENTATION_RELATIONSHIP_WITH_TRANSFORMATION(#14)
SHAPE_REPRESENTATION_RELATIONSHIP()
);
#22=(
REPRESENTATION_RELATIONSHIP($,$,#490,#488)
REPRESENTATION_RELATIONSHIP_WITH_TRANSFORMATION(#15)
SHAPE_REPRESENTATION_RELATIONSHIP()
);
#23=(
REPRESENTATION_RELATIONSHIP($,$,#490,#488)
REPRESENTATION_RELATIONSHIP_WITH_TRANSFORMATION(#16)
SHAPE_REPRESENTATION_RELATIONSHIP()
);
#24=(
REPRESENTATION_RELATIONSHIP($,$,#490,#488)
REPRESENTATION_RELATIONSHIP_WITH_TRANSFORMATION(#17)
SHAPE_REPRESENTATION_RELATIONSHIP()
);
#25=CONTEXT_DEPENDENT_SHAPE_REPRESENTATION(#18,#481);
#26=CONTEXT_DEPENDENT_SHAPE_REPRESENTATION(#19,#482);
#27=CONTEXT_DEPENDENT_SHAPE_REPRESENTATION(#20,#483);
#28=CONTEXT_DEPENDENT_SHAPE_REPRESENTATION(#21,#484);
#29=CONTEXT_DEPENDENT_SHAPE_REPRESENTATION(#22,#485);
#30=CONTEXT_DEPENDENT_SHAPE_REPRESENTATION(#23,#486);
#31=CONTEXT_DEPENDENT_SHAPE_REPRESENTATION(#24,#487);
#32=NEXT_ASSEMBLY_USAGE_OCCURRENCE('Component1:1','Component1:1',
'Component1:1',#492,#493,'Component1:1');
#33=NEXT_ASSEMBLY_USAGE_OCCURRENCE('Component2:1','Component2:1',
'Component2:1',#492,#494,'Component2:1');
#34=NEXT_ASSEMBLY_USAGE_OCCURRENCE('Component2:2','Component2:2',
'Component2:2',#492,#494,'Component2:2');
#35=NEXT_ASSEMBLY_USAGE_OCCURRENCE('Component2:3','Component2:3',
'Component2:3',#492,#494,'Component2:3');
#36=NEXT_ASSEMBLY_USAGE_OCCURRENCE('Component2:4','Component2:4',
'Component2:4',#492,#494,'Component2:4');
#37=NEXT_ASSEMBLY_USAGE_OCCURRENCE('Component2:5','Component2:5',
'Component2:5',#492,#494,'Component2:5');
#38=NEXT_ASSEMBLY_USAGE_OCCURRENCE('Component2:6','Component2:6',
'Component2:6',#492,#494,'Component2:6');
#39=SHAPE_REPRESENTATION_RELATIONSHIP('SRR','None',#489,#41);
#40=SHAPE_REPRESENTATION_RELATIONSHIP('SRR','None',#490,#42);
#41=ADVANCED_BREP_SHAPE_REPRESENTATION('',(#43),#465);
#42=ADVANCED_BREP_SHAPE_REPRESENTATION('',(#44),#466);
#43=MANIFOLD_SOLID_BREP('Body1',#263);
#44=MANIFOLD_SOLID_BREP('Body1',#264);
#45=FACE_BOUND('',#89,.T.);
#46=PLANE('',#293);
#47=PLANE('',#294);
#48=PLANE('',#295);
#49=PLANE('',#296);
#50=PLANE('',#297);
#51=PLANE('',#298);
#52=PLANE('',#299);
#53=PLANE('',#301);
#54=PLANE('',#302);
#55=PLANE('',#303);
#56=PLANE('',#304);
#57=PLANE('',#305);
#58=PLANE('',#306);
#59=STYLED_ITEM('',(#508),#250);
#60=STYLED_ITEM('',(#508),#251);
#61=STYLED_ITEM('',(#508),#252);
#62=STYLED_ITEM('',(#508),#253);
#63=STYLED_ITEM('',(#508),#254);
#64=STYLED_ITEM('',(#508),#255);
#65=STYLED_ITEM('',(#509),#256);
#66=STYLED_ITEM('',(#507),#43);
#67=STYLED_ITEM('',(#510),#44);
#68=FACE_OUTER_BOUND('',#82,.T.);
#69=FACE_OUTER_BOUND('',#83,.T.);
#70=FACE_OUTER_BOUND('',#84,.T.);
#71=FACE_OUTER_BOUND('',#85,.T.);
#72=FACE_OUTER_BOUND('',#86,.T.);
#73=FACE_OUTER_BOUND('',#87,.T.);
#74=FACE_OUTER_BOUND('',#88,.T.);
#75=FACE_OUTER_BOUND('',#90,.T.);
#76=FACE_OUTER_BOUND('',#91,.T.);
#77=FACE_OUTER_BOUND('',#92,.T.);
#78=FACE_OUTER_BOUND('',#93,.T.);
#79=FACE_OUTER_BOUND('',#94,.T.);
#80=FACE_OUTER_BOUND('',#95,.T.);
#81=FACE_OUTER_BOUND('',#96,.T.);
#82=EDGE_LOOP('',(#194,#195,#196,#197));
#83=EDGE_LOOP('',(#198));
#84=EDGE_LOOP('',(#199,#200,#201,#202));
#85=EDGE_LOOP('',(#203,#204,#205,#206));
#86=EDGE_LOOP('',(#207,#208,#209,#210));
#87=EDGE_LOOP('',(#211,#212,#213,#214));
#88=EDGE_LOOP('',(#215,#216,#217,#218));
#89=EDGE_LOOP('',(#219));
#90=EDGE_LOOP('',(#220,#221,#222,#223));
#91=EDGE_LOOP('',(#224,#225,#226,#227));
#92=EDGE_LOOP('',(#228,#229,#230,#231));
#93=EDGE_LOOP('',(#232,#233,#234,#235));
#94=EDGE_LOOP('',(#236,#237,#238,#239));
#95=EDGE_LOOP('',(#240,#241,#242,#243));
#96=EDGE_LOOP('',(#244,#245,#246,#247));
#97=LINE('',#397,#122);
#98=LINE('',#403,#123);
#99=LINE('',#405,#124);
#100=LINE('',#407,#125);
#101=LINE('',#408,#126);
#102=LINE('',#411,#127);
#103=LINE('',#413,#128);
#104=LINE('',#414,#129);
#105=LINE('',#417,#130);
#106=LINE('',#419,#131);
#107=LINE('',#420,#132);
#108=LINE('',#422,#133);
#109=LINE('',#423,#134);
#110=LINE('',#430,#135);
#111=LINE('',#432,#136);
#112=LINE('',#434,#137);
#113=LINE('',#435,#138);
#114=LINE('',#438,#139);
#115=LINE('',#440,#140);
#116=LINE('',#441,#141);
#117=LINE('',#444,#142);
#118=LINE('',#446,#143);
#119=LINE('',#447,#144);
#120=LINE('',#449,#145);
#121=LINE('',#450,#146);
#122=VECTOR('',#322,0.0115808617158059);
#123=VECTOR('',#329,0.393700787401575);
#124=VECTOR('',#330,0.393700787401575);
#125=VECTOR('',#331,0.393700787401575);
#126=VECTOR('',#332,0.393700787401575);
#127=VECTOR('',#335,0.393700787401575);
#128=VECTOR('',#336,0.393700787401575);
#129=VECTOR('',#337,0.393700787401575);
#130=VECTOR('',#340,0.393700787401575);
#131=VECTOR('',#341,0.393700787401575);
#132=VECTOR('',#342,0.393700787401575);
#133=VECTOR('',#345,0.393700787401575);
#134=VECTOR('',#346,0.393700787401575);
#135=VECTOR('',#355,0.393700787401575);
#136=VECTOR('',#356,0.393700787401575);
#137=VECTOR('',#357,0.393700787401575);
#138=VECTOR('',#358,0.393700787401575);
#139=VECTOR('',#361,0.393700787401575);
#140=VECTOR('',#362,0.393700787401575);
#141=VECTOR('',#363,0.393700787401575);
#142=VECTOR('',#366,0.393700787401575);
#143=VECTOR('',#367,0.393700787401575);
#144=VECTOR('',#368,0.393700787401575);
#145=VECTOR('',#371,0.393700787401575);
#146=VECTOR('',#372,0.393700787401575);
#147=CIRCLE('',#291,0.0115808617158059);
#148=CIRCLE('',#292,0.0115808617158059);
#149=VERTEX_POINT('',#394);
#150=VERTEX_POINT('',#396);
#151=VERTEX_POINT('',#401);
#152=VERTEX_POINT('',#402);
#153=VERTEX_POINT('',#404);
#154=VERTEX_POINT('',#406);
#155=VERTEX_POINT('',#410);
#156=VERTEX_POINT('',#412);
#157=VERTEX_POINT('',#416);
#158=VERTEX_POINT('',#418);
#159=VERTEX_POINT('',#428);
#160=VERTEX_POINT('',#429);
#161=VERTEX_POINT('',#431);
#162=VERTEX_POINT('',#433);
#163=VERTEX_POINT('',#437);
#164=VERTEX_POINT('',#439);
#165=VERTEX_POINT('',#443);
#166=VERTEX_POINT('',#445);
#167=EDGE_CURVE('',#149,#149,#147,.T.);
#168=EDGE_CURVE('',#149,#150,#97,.T.);
#169=EDGE_CURVE('',#150,#150,#148,.T.);
#170=EDGE_CURVE('',#151,#152,#98,.T.);
#171=EDGE_CURVE('',#152,#153,#99,.T.);
#172=EDGE_CURVE('',#154,#153,#100,.T.);
#173=EDGE_CURVE('',#151,#154,#101,.T.);
#174=EDGE_CURVE('',#155,#151,#102,.T.);
#175=EDGE_CURVE('',#156,#154,#103,.T.);
#176=EDGE_CURVE('',#155,#156,#104,.T.);
#177=EDGE_CURVE('',#157,#155,#105,.T.);
#178=EDGE_CURVE('',#158,#156,#106,.T.);
#179=EDGE_CURVE('',#157,#158,#107,.T.);
#180=EDGE_CURVE('',#152,#157,#108,.T.);
#181=EDGE_CURVE('',#153,#158,#109,.T.);
#182=EDGE_CURVE('',#159,#160,#110,.T.);
#183=EDGE_CURVE('',#159,#161,#111,.T.);
#184=EDGE_CURVE('',#162,#161,#112,.T.);
#185=EDGE_CURVE('',#160,#162,#113,.T.);
#186=EDGE_CURVE('',#160,#163,#114,.T.);
#187=EDGE_CURVE('',#164,#162,#115,.T.);
#188=EDGE_CURVE('',#163,#164,#116,.T.);
#189=EDGE_CURVE('',#163,#165,#117,.T.);
#190=EDGE_CURVE('',#166,#164,#118,.T.);
#191=EDGE_CURVE('',#165,#166,#119,.T.);
#192=EDGE_CURVE('',#165,#159,#120,.T.);
#193=EDGE_CURVE('',#161,#166,#121,.T.);
#194=ORIENTED_EDGE('',*,*,#167,.F.);
#195=ORIENTED_EDGE('',*,*,#168,.T.);
#196=ORIENTED_EDGE('',*,*,#169,.T.);
#197=ORIENTED_EDGE('',*,*,#168,.F.);
#198=ORIENTED_EDGE('',*,*,#169,.F.);
#199=ORIENTED_EDGE('',*,*,#170,.T.);
#200=ORIENTED_EDGE('',*,*,#171,.T.);
#201=ORIENTED_EDGE('',*,*,#172,.F.);
#202=ORIENTED_EDGE('',*,*,#173,.F.);
#203=ORIENTED_EDGE('',*,*,#174,.T.);
#204=ORIENTED_EDGE('',*,*,#173,.T.);
#205=ORIENTED_EDGE('',*,*,#175,.F.);
#206=ORIENTED_EDGE('',*,*,#176,.F.);
#207=ORIENTED_EDGE('',*,*,#177,.T.);
#208=ORIENTED_EDGE('',*,*,#176,.T.);
#209=ORIENTED_EDGE('',*,*,#178,.F.);
#210=ORIENTED_EDGE('',*,*,#179,.F.);
#211=ORIENTED_EDGE('',*,*,#180,.T.);
#212=ORIENTED_EDGE('',*,*,#179,.T.);
#213=ORIENTED_EDGE('',*,*,#181,.F.);
#214=ORIENTED_EDGE('',*,*,#171,.F.);
#215=ORIENTED_EDGE('',*,*,#181,.T.);
#216=ORIENTED_EDGE('',*,*,#178,.T.);
#217=ORIENTED_EDGE('',*,*,#175,.T.);
#218=ORIENTED_EDGE('',*,*,#172,.T.);
#219=ORIENTED_EDGE('',*,*,#167,.T.);
#220=ORIENTED_EDGE('',*,*,#180,.F.);
#221=ORIENTED_EDGE('',*,*,#170,.F.);
#222=ORIENTED_EDGE('',*,*,#174,.F.);
#223=ORIENTED_EDGE('',*,*,#177,.F.);
#224=ORIENTED_EDGE('',*,*,#182,.F.);
#225=ORIENTED_EDGE('',*,*,#183,.T.);
#226=ORIENTED_EDGE('',*,*,#184,.F.);
#227=ORIENTED_EDGE('',*,*,#185,.F.);
#228=ORIENTED_EDGE('',*,*,#186,.F.);
#229=ORIENTED_EDGE('',*,*,#185,.T.);
#230=ORIENTED_EDGE('',*,*,#187,.F.);
#231=ORIENTED_EDGE('',*,*,#188,.F.);
#232=ORIENTED_EDGE('',*,*,#189,.F.);
#233=ORIENTED_EDGE('',*,*,#188,.T.);
#234=ORIENTED_EDGE('',*,*,#190,.F.);
#235=ORIENTED_EDGE('',*,*,#191,.F.);
#236=ORIENTED_EDGE('',*,*,#192,.F.);
#237=ORIENTED_EDGE('',*,*,#191,.T.);
#238=ORIENTED_EDGE('',*,*,#193,.F.);
#239=ORIENTED_EDGE('',*,*,#183,.F.);
#240=ORIENTED_EDGE('',*,*,#192,.T.);
#241=ORIENTED_EDGE('',*,*,#182,.T.);
#242=ORIENTED_EDGE('',*,*,#186,.T.);
#243=ORIENTED_EDGE('',*,*,#189,.T.);
#244=ORIENTED_EDGE('',*,*,#193,.T.);
#245=ORIENTED_EDGE('',*,*,#190,.T.);
#246=ORIENTED_EDGE('',*,*,#187,.T.);
#247=ORIENTED_EDGE('',*,*,#184,.T.);
#248=CYLINDRICAL_SURFACE('',#290,0.0115808617158059);
#249=ADVANCED_FACE('',(#68),#248,.F.);
#250=ADVANCED_FACE('',(#69),#46,.T.);
#251=ADVANCED_FACE('',(#70),#47,.T.);
#252=ADVANCED_FACE('',(#71),#48,.T.);
#253=ADVANCED_FACE('',(#72),#49,.T.);
#254=ADVANCED_FACE('',(#73),#50,.T.);
#255=ADVANCED_FACE('',(#74,#45),#51,.T.);
#256=ADVANCED_FACE('',(#75),#52,.F.);
#257=ADVANCED_FACE('',(#76),#53,.T.);
#258=ADVANCED_FACE('',(#77),#54,.T.);
#259=ADVANCED_FACE('',(#78),#55,.T.);
#260=ADVANCED_FACE('',(#79),#56,.T.);
#261=ADVANCED_FACE('',(#80),#57,.T.);
#262=ADVANCED_FACE('',(#81),#58,.T.);
#263=CLOSED_SHELL('',(#249,#250,#251,#252,#253,#254,#255,#256));
#264=CLOSED_SHELL('',(#257,#258,#259,#260,#261,#262));
#265=DERIVED_UNIT_ELEMENT(#269,1.);
#266=DERIVED_UNIT_ELEMENT(#471,-3.);
#267=DERIVED_UNIT_ELEMENT(#269,1.);
#268=DERIVED_UNIT_ELEMENT(#471,-3.);
#269=(
MASS_UNIT()
NAMED_UNIT(*)
SI_UNIT(.KILO.,.GRAM.)
);
#270=DERIVED_UNIT((#265,#266));
#271=DERIVED_UNIT((#267,#268));
#272=MEASURE_REPRESENTATION_ITEM('density measure',
POSITIVE_RATIO_MEASURE(2700.),#270);
#273=MEASURE_REPRESENTATION_ITEM('density measure',
POSITIVE_RATIO_MEASURE(19300.),#271);
#274=PROPERTY_DEFINITION_REPRESENTATION(#284,#278);
#275=PROPERTY_DEFINITION_REPRESENTATION(#285,#279);
#276=PROPERTY_DEFINITION_REPRESENTATION(#286,#280);
#277=PROPERTY_DEFINITION_REPRESENTATION(#287,#281);
#278=REPRESENTATION('material name',(#282),#465);
#279=REPRESENTATION('density',(#272),#465);
#280=REPRESENTATION('material name',(#283),#466);
#281=REPRESENTATION('density',(#273),#466);
#282=DESCRIPTIVE_REPRESENTATION_ITEM('Aluminum 6061 T6 0 Cold Formed',
'Aluminum 6061 T6 0 Cold Formed');
#283=DESCRIPTIVE_REPRESENTATION_ITEM('Gold','Gold');
#284=PROPERTY_DEFINITION('material property','material name',#493);
#285=PROPERTY_DEFINITION('material property','density of part',#493);
#286=PROPERTY_DEFINITION('material property','material name',#494);
#287=PROPERTY_DEFINITION('material property','density of part',#494);
#288=AXIS2_PLACEMENT_3D('',#391,#314,#315);
#289=AXIS2_PLACEMENT_3D('',#392,#316,#317);
#290=AXIS2_PLACEMENT_3D('',#393,#318,#319);
#291=AXIS2_PLACEMENT_3D('',#395,#320,#321);
#292=AXIS2_PLACEMENT_3D('',#398,#323,#324);
#293=AXIS2_PLACEMENT_3D('',#399,#325,#326);
#294=AXIS2_PLACEMENT_3D('',#400,#327,#328);
#295=AXIS2_PLACEMENT_3D('',#409,#333,#334);
#296=AXIS2_PLACEMENT_3D('',#415,#338,#339);
#297=AXIS2_PLACEMENT_3D('',#421,#343,#344);
#298=AXIS2_PLACEMENT_3D('',#424,#347,#348);
#299=AXIS2_PLACEMENT_3D('',#425,#349,#350);
#300=AXIS2_PLACEMENT_3D('',#426,#351,#352);
#301=AXIS2_PLACEMENT_3D('',#427,#353,#354);
#302=AXIS2_PLACEMENT_3D('',#436,#359,#360);
#303=AXIS2_PLACEMENT_3D('',#442,#364,#365);
#304=AXIS2_PLACEMENT_3D('',#448,#369,#370);
#305=AXIS2_PLACEMENT_3D('',#451,#373,#374);
#306=AXIS2_PLACEMENT_3D('',#452,#375,#376);
#307=AXIS2_PLACEMENT_3D('',#453,#377,#378);
#308=AXIS2_PLACEMENT_3D('',#454,#379,#380);
#309=AXIS2_PLACEMENT_3D('',#455,#381,#382);
#310=AXIS2_PLACEMENT_3D('',#456,#383,#384);
#311=AXIS2_PLACEMENT_3D('',#457,#385,#386);
#312=AXIS2_PLACEMENT_3D('',#458,#387,#388);
#313=AXIS2_PLACEMENT_3D('',#459,#389,#390);
#314=DIRECTION('axis',(0.,0.,1.));
#315=DIRECTION('refdir',(1.,0.,0.));
#316=DIRECTION('axis',(0.,0.,1.));
#317=DIRECTION('refdir',(1.,0.,0.));
#318=DIRECTION('center_axis',(0.,0.,-1.));
#319=DIRECTION('ref_axis',(-1.,0.,0.));
#320=DIRECTION('center_axis',(0.,0.,-1.));
#321=DIRECTION('ref_axis',(-1.,0.,0.));
#322=DIRECTION('',(0.,0.,-1.));
#323=DIRECTION('center_axis',(0.,0.,-1.));
#324=DIRECTION('ref_axis',(-1.,0.,0.));
#325=DIRECTION('center_axis',(0.,0.,1.));
#326=DIRECTION('ref_axis',(-1.,0.,0.));
#327=DIRECTION('center_axis',(0.,-1.,0.));
#328=DIRECTION('ref_axis',(1.,0.,0.));
#329=DIRECTION('',(1.,0.,0.));
#330=DIRECTION('',(0.,0.,1.));
#331=DIRECTION('',(1.,0.,0.));
#332=DIRECTION('',(0.,0.,1.));
#333=DIRECTION('center_axis',(-1.,0.,0.));
#334=DIRECTION('ref_axis',(0.,-1.,0.));
#335=DIRECTION('',(0.,-1.,0.));
#336=DIRECTION('',(0.,-1.,0.));
#337=DIRECTION('',(0.,0.,1.));
#338=DIRECTION('center_axis',(0.,1.,0.));
#339=DIRECTION('ref_axis',(-1.,0.,0.));
#340=DIRECTION('',(-1.,0.,0.));
#341=DIRECTION('',(-1.,0.,0.));
#342=DIRECTION('',(0.,0.,1.));
#343=DIRECTION('center_axis',(1.,0.,0.));
#344=DIRECTION('ref_axis',(0.,1.,0.));
#345=DIRECTION('',(0.,1.,0.));
#346=DIRECTION('',(0.,1.,0.));
#347=DIRECTION('center_axis',(0.,0.,1.));
#348=DIRECTION('ref_axis',(1.,0.,0.));
#349=DIRECTION('center_axis',(0.,0.,1.));
#350=DIRECTION('ref_axis',(1.,0.,0.));
#351=DIRECTION('axis',(0.,0.,1.));
#352=DIRECTION('refdir',(1.,0.,0.));
#353=DIRECTION('center_axis',(0.,1.,0.));
#354=DIRECTION('ref_axis',(1.,0.,0.));
#355=DIRECTION('',(-1.,0.,0.));
#356=DIRECTION('',(0.,0.,-1.));
#357=DIRECTION('',(1.,0.,0.));
#358=DIRECTION('',(0.,0.,-1.));
#359=DIRECTION('center_axis',(-1.,0.,0.));
#360=DIRECTION('ref_axis',(0.,1.,0.));
#361=DIRECTION('',(0.,-1.,0.));
#362=DIRECTION('',(0.,1.,0.));
#363=DIRECTION('',(0.,0.,-1.));
#364=DIRECTION('center_axis',(0.,-1.,0.));
#365=DIRECTION('ref_axis',(-1.,0.,0.));
#366=DIRECTION('',(1.,0.,0.));
#367=DIRECTION('',(-1.,0.,0.));
#368=DIRECTION('',(0.,0.,-1.));
#369=DIRECTION('center_axis',(1.,0.,0.));
#370=DIRECTION('ref_axis',(0.,-1.,0.));
#371=DIRECTION('',(0.,1.,0.));
#372=DIRECTION('',(0.,-1.,0.));
#373=DIRECTION('center_axis',(0.,0.,1.));
#374=DIRECTION('ref_axis',(1.,0.,0.));
#375=DIRECTION('center_axis',(0.,0.,-1.));
#376=DIRECTION('ref_axis',(-1.,0.,0.));
#377=DIRECTION('',(0.,0.,1.));
#378=DIRECTION('',(1.,0.,0.));
#379=DIRECTION('',(0.,0.,1.));
#380=DIRECTION('',(1.,0.,0.));
#381=DIRECTION('',(0.,0.,1.));
#382=DIRECTION('',(1.,0.,0.));
#383=DIRECTION('',(0.,0.,1.));
#384=DIRECTION('',(1.,0.,0.));
#385=DIRECTION('',(0.,0.,1.));
#386=DIRECTION('',(1.,0.,0.));
#387=DIRECTION('',(0.,0.,1.));
#388=DIRECTION('',(1.,0.,0.));
#389=DIRECTION('',(0.,0.,1.));
#390=DIRECTION('',(1.,0.,0.));
#391=CARTESIAN_POINT('',(0.,0.,0.));
#392=CARTESIAN_POINT('',(0.,0.,0.));
#393=CARTESIAN_POINT('Origin',(-0.0948409209959233,0.085,0.07));
#394=CARTESIAN_POINT('',(-0.0832600592801174,0.085,0.07));
#395=CARTESIAN_POINT('Origin',(-0.0948409209959233,0.085,0.07));
#396=CARTESIAN_POINT('',(-0.0832600592801174,0.085,0.065));
#397=CARTESIAN_POINT('',(-0.0832600592801174,0.085,0.07));
#398=CARTESIAN_POINT('Origin',(-0.0948409209959233,0.085,0.065));
#399=CARTESIAN_POINT('Origin',(-0.0948409209959233,0.085,0.065));
#400=CARTESIAN_POINT('Origin',(-0.12,-0.12,0.));
#401=CARTESIAN_POINT('',(-0.12,-0.12,0.));
#402=CARTESIAN_POINT('',(0.12,-0.12,0.));
#403=CARTESIAN_POINT('',(-0.12,-0.12,0.));
#404=CARTESIAN_POINT('',(0.12,-0.12,0.07));
#405=CARTESIAN_POINT('',(0.12,-0.12,0.));
#406=CARTESIAN_POINT('',(-0.12,-0.12,0.07));
#407=CARTESIAN_POINT('',(-0.12,-0.12,0.07));
#408=CARTESIAN_POINT('',(-0.12,-0.12,0.));
#409=CARTESIAN_POINT('Origin',(-0.12,0.12,0.));
#410=CARTESIAN_POINT('',(-0.12,0.12,0.));
#411=CARTESIAN_POINT('',(-0.12,0.12,0.));
#412=CARTESIAN_POINT('',(-0.12,0.12,0.07));
#413=CARTESIAN_POINT('',(-0.12,0.12,0.07));
#414=CARTESIAN_POINT('',(-0.12,0.12,0.));
#415=CARTESIAN_POINT('Origin',(0.12,0.12,0.));
#416=CARTESIAN_POINT('',(0.12,0.12,0.));
#417=CARTESIAN_POINT('',(0.12,0.12,0.));
#418=CARTESIAN_POINT('',(0.12,0.12,0.07));
#419=CARTESIAN_POINT('',(0.12,0.12,0.07));
#420=CARTESIAN_POINT('',(0.12,0.12,0.));
#421=CARTESIAN_POINT('Origin',(0.12,-0.12,0.));
#422=CARTESIAN_POINT('',(0.12,-0.12,0.));
#423=CARTESIAN_POINT('',(0.12,-0.12,0.07));
#424=CARTESIAN_POINT('Origin',(0.,0.,0.07));
#425=CARTESIAN_POINT('Origin',(0.,0.,0.));
#426=CARTESIAN_POINT('',(0.,0.,0.));
#427=CARTESIAN_POINT('Origin',(0.089,0.085,0.));
#428=CARTESIAN_POINT('',(0.119,0.085,0.));
#429=CARTESIAN_POINT('',(0.089,0.085,0.));
#430=CARTESIAN_POINT('',(0.119,0.085,0.));
#431=CARTESIAN_POINT('',(0.119,0.085,-0.002));
#432=CARTESIAN_POINT('',(0.119,0.085,0.));
#433=CARTESIAN_POINT('',(0.089,0.085,-0.002));
#434=CARTESIAN_POINT('',(0.119,0.085,-0.002));
#435=CARTESIAN_POINT('',(0.089,0.085,0.));
#436=CARTESIAN_POINT('Origin',(0.089,0.065,0.));
#437=CARTESIAN_POINT('',(0.089,0.065,0.));
#438=CARTESIAN_POINT('',(0.089,0.085,0.));
#439=CARTESIAN_POINT('',(0.089,0.065,-0.002));
#440=CARTESIAN_POINT('',(0.089,0.085,-0.002));
#441=CARTESIAN_POINT('',(0.089,0.065,0.));
#442=CARTESIAN_POINT('Origin',(0.119,0.065,0.));
#443=CARTESIAN_POINT('',(0.119,0.065,0.));
#444=CARTESIAN_POINT('',(0.089,0.065,0.));
#445=CARTESIAN_POINT('',(0.119,0.065,-0.002));
#446=CARTESIAN_POINT('',(0.089,0.065,-0.002));
#447=CARTESIAN_POINT('',(0.119,0.065,0.));
#448=CARTESIAN_POINT('Origin',(0.119,0.085,0.));
#449=CARTESIAN_POINT('',(0.119,0.065,0.));
#450=CARTESIAN_POINT('',(0.119,0.065,-0.002));
#451=CARTESIAN_POINT('Origin',(0.104,0.075,0.));
#452=CARTESIAN_POINT('Origin',(0.104,0.075,-0.002));
#453=CARTESIAN_POINT('',(0.,0.,0.));
#454=CARTESIAN_POINT('',(0.,0.,0.));
#455=CARTESIAN_POINT('',(-0.208,0.,0.));
#456=CARTESIAN_POINT('',(0.,-0.075,0.));
#457=CARTESIAN_POINT('',(-0.208,-0.075,0.));
#458=CARTESIAN_POINT('',(0.,-0.15,0.));
#459=CARTESIAN_POINT('',(-0.208,-0.15,0.));
#460=UNCERTAINTY_MEASURE_WITH_UNIT(LENGTH_MEASURE(0.000393700787401575),
#469,'DISTANCE_ACCURACY_VALUE',
'Maximum model space distance between geometric entities at asserted c
onnectivities');
#461=UNCERTAINTY_MEASURE_WITH_UNIT(LENGTH_MEASURE(0.000393700787401575),
#469,'DISTANCE_ACCURACY_VALUE',
'Maximum model space distance between geometric entities at asserted c
onnectivities');
#462=UNCERTAINTY_MEASURE_WITH_UNIT(LENGTH_MEASURE(0.000393700787401575),
#469,'DISTANCE_ACCURACY_VALUE',
'Maximum model space distance between geometric entities at asserted c
onnectivities');
#463=UNCERTAINTY_MEASURE_WITH_UNIT(LENGTH_MEASURE(0.000393700787401575),
#469,'DISTANCE_ACCURACY_VALUE',
'Maximum model space distance between geometric entities at asserted c
onnectivities');
#464=(
GEOMETRIC_REPRESENTATION_CONTEXT(3)
GLOBAL_UNCERTAINTY_ASSIGNED_CONTEXT((#460))
GLOBAL_UNIT_ASSIGNED_CONTEXT((#469,#473,#474))
REPRESENTATION_CONTEXT('','3D')
);
#465=(
GEOMETRIC_REPRESENTATION_CONTEXT(3)
GLOBAL_UNCERTAINTY_ASSIGNED_CONTEXT((#461))
GLOBAL_UNIT_ASSIGNED_CONTEXT((#469,#473,#474))
REPRESENTATION_CONTEXT('','3D')
);
#466=(
GEOMETRIC_REPRESENTATION_CONTEXT(3)
GLOBAL_UNCERTAINTY_ASSIGNED_CONTEXT((#462))
GLOBAL_UNIT_ASSIGNED_CONTEXT((#469,#473,#474))
REPRESENTATION_CONTEXT('','3D')
);
#467=(
GEOMETRIC_REPRESENTATION_CONTEXT(3)
GLOBAL_UNCERTAINTY_ASSIGNED_CONTEXT((#463))
GLOBAL_UNIT_ASSIGNED_CONTEXT((#469,#473,#474))
REPRESENTATION_CONTEXT('','3D')
);
#468=DIMENSIONAL_EXPONENTS(1.,0.,0.,0.,0.,0.,0.);
#469=(
CONVERSION_BASED_UNIT('inch',#472)
LENGTH_UNIT()
NAMED_UNIT(#468)
);
#470=(
LENGTH_UNIT()
NAMED_UNIT(*)
SI_UNIT(.MILLI.,.METRE.)
);
#471=(
LENGTH_UNIT()
NAMED_UNIT(*)
SI_UNIT($,.METRE.)
);
#472=LENGTH_MEASURE_WITH_UNIT(LENGTH_MEASURE(25.4),#470);
#473=(
NAMED_UNIT(*)
PLANE_ANGLE_UNIT()
SI_UNIT($,.RADIAN.)
);
#474=(
NAMED_UNIT(*)
SI_UNIT($,.STERADIAN.)
SOLID_ANGLE_UNIT()
);
#475=SHAPE_DEFINITION_REPRESENTATION(#478,#488);
#476=SHAPE_DEFINITION_REPRESENTATION(#479,#489);
#477=SHAPE_DEFINITION_REPRESENTATION(#480,#490);
#478=PRODUCT_DEFINITION_SHAPE('',$,#492);
#479=PRODUCT_DEFINITION_SHAPE('',$,#493);
#480=PRODUCT_DEFINITION_SHAPE('',$,#494);
#481=PRODUCT_DEFINITION_SHAPE($,$,#32);
#482=PRODUCT_DEFINITION_SHAPE($,$,#33);
#483=PRODUCT_DEFINITION_SHAPE($,$,#34);
#484=PRODUCT_DEFINITION_SHAPE($,$,#35);
#485=PRODUCT_DEFINITION_SHAPE($,$,#36);
#486=PRODUCT_DEFINITION_SHAPE($,$,#37);
#487=PRODUCT_DEFINITION_SHAPE($,$,#38);
#488=SHAPE_REPRESENTATION('',(#288,#307,#308,#309,#310,#311,#312,#313),
#464);
#489=SHAPE_REPRESENTATION('',(#289),#465);
#490=SHAPE_REPRESENTATION('',(#300),#466);
#491=PRODUCT_DEFINITION_CONTEXT('part definition',#502,'design');
#492=PRODUCT_DEFINITION('Monzite_MCI050N400D06A',
'Monzite_MCI050N400D06A v2',#495,#491);
#493=PRODUCT_DEFINITION('Component1','Component1',#496,#491);
#494=PRODUCT_DEFINITION('Component2','Component2',#497,#491);
#495=PRODUCT_DEFINITION_FORMATION('',$,#504);
#496=PRODUCT_DEFINITION_FORMATION('',$,#505);
#497=PRODUCT_DEFINITION_FORMATION('',$,#506);
#498=PRODUCT_RELATED_PRODUCT_CATEGORY('Monzite_MCI050N400D06A v2',
'Monzite_MCI050N400D06A v2',(#504));
#499=PRODUCT_RELATED_PRODUCT_CATEGORY('Component1','Component1',(#505));
#500=PRODUCT_RELATED_PRODUCT_CATEGORY('Component2','Component2',(#506));
#501=APPLICATION_PROTOCOL_DEFINITION('international standard',
'automotive_design',2009,#502);
#502=APPLICATION_CONTEXT(
'Core Data for Automotive Mechanical Design Process');
#503=PRODUCT_CONTEXT('part definition',#502,'mechanical');
#504=PRODUCT('Monzite_MCI050N400D06A','Monzite_MCI050N400D06A v2',$,(#503));
#505=PRODUCT('Component1','Component1',$,(#503));
#506=PRODUCT('Component2','Component2',$,(#503));
#507=PRESENTATION_STYLE_ASSIGNMENT((#511));
#508=PRESENTATION_STYLE_ASSIGNMENT((#512));
#509=PRESENTATION_STYLE_ASSIGNMENT((#513));
#510=PRESENTATION_STYLE_ASSIGNMENT((#514));
#511=SURFACE_STYLE_USAGE(.BOTH.,#515);
#512=SURFACE_STYLE_USAGE(.BOTH.,#516);
#513=SURFACE_STYLE_USAGE(.BOTH.,#517);
#514=SURFACE_STYLE_USAGE(.BOTH.,#518);
#515=SURFACE_SIDE_STYLE('',(#519));
#516=SURFACE_SIDE_STYLE('',(#520));
#517=SURFACE_SIDE_STYLE('',(#521));
#518=SURFACE_SIDE_STYLE('',(#522));
#519=SURFACE_STYLE_FILL_AREA(#523);
#520=SURFACE_STYLE_FILL_AREA(#524);
#521=SURFACE_STYLE_FILL_AREA(#525);
#522=SURFACE_STYLE_FILL_AREA(#526);
#523=FILL_AREA_STYLE('Aluminum - Satin',(#527));
#524=FILL_AREA_STYLE('Paint - Enamel Glossy (Black)',(#528));
#525=FILL_AREA_STYLE('Paint - Enamel Glossy (Green)',(#529));
#526=FILL_AREA_STYLE('Gold - Polished',(#530));
#527=FILL_AREA_STYLE_COLOUR('Aluminum - Satin',#531);
#528=FILL_AREA_STYLE_COLOUR('Paint - Enamel Glossy (Black)',#532);
#529=FILL_AREA_STYLE_COLOUR('Paint - Enamel Glossy (Green)',#533);
#530=FILL_AREA_STYLE_COLOUR('Gold - Polished',#534);
#531=COLOUR_RGB('Aluminum - Satin',0.96078431372549,0.96078431372549,0.964705882352941);
#532=COLOUR_RGB('Paint - Enamel Glossy (Black)',0.0980392156862745,0.0980392156862745,
0.0980392156862745);
#533=COLOUR_RGB('Paint - Enamel Glossy (Green)',0.266666666666667,0.588235294117647,
0.282352941176471);
#534=COLOUR_RGB('Gold - Polished',0.956862745098039,0.898039215686275,0.654901960784314);
ENDSEC;
END-ISO-10303-21;
